Banish Misfortune


                      Banish Misfortune

                                      Traditional Irish tune
                                       Mandolin tablature by 
                                    Elizabeth T. Knuth, 1998

Key: D

Jig


E--||-------0--|--2--0--------------|--------------------|
A--||*--6:-----|--------5--4--0-----|--0-----5--3--0-----|
D--||*--8:-----|-----------------5--|-----------------5--|
G--||----------|--------------------|--------------------|
            |_    |__|__|  |__|__|     |     |_ |__|__|


                        Q                    Q 
|--------------------|--------------------|--------------------|
|--------------------|--------------------|--0--------3--0-----|
|--4-----0--0--2--0--|--4--------5--4--5--|-----------------5--|
|--------------------|--------------------|--------------------|
   |     |_ |__|__|     |        |__|__|     |        |__|__|


|-----------------0--|--2--0--------------|------------------||
|--0-----0--3--5-----|--------5--4--0-----|--0--5--5--5-----*||
|-----5--------------|-----------------5--|-----------------*||
|--------------------|--------------------|------------------||
   |__|__|  |__|__|     |__|__|  |__|__|     |__|__|  |


||---0--|--2-----------------|--------------------|
||*-----|--------5--5--4--5--|--2-----3--5--3--2--|
||*-----|--------------------|--------------------|
||------|--------------------|--------------------|
     |_    |     |_ |__|__|     |     |_ |__|__|


|--0-----------------|--0-----2--3--2--0--|--2-----3--5--3--2--|
|--------3--3--0--3--|--------------------|--------------------|
|--------------------|--------------------|--------------------|
|--------------------|--------------------|--------------------|
   |     |_ |__|__|     |     |_ |__|__|     |     |_ |__|__|


|--0-----2--3--2--0--|--2--0--------------|------------------||
|--------------------|--------5--3--0-----|--0--5--5--5-----*||
|--------------------|-----------------5--|-----------------*||
|--------------------|--------------------|------------------||
   |     |_ |__|__|     |__|__|  |__|__|     |__|__|  |

 
||---0--|--2-----3--0-----2--|--------0-----------|
||*-----|--------------------|--5--------3-----5--|
||*-----|--------------------|--------------------|
||------|--------------------|--------------------|
     |_    |     |_ |     |_    |     |_ |     |_ 


                        Q                    Q
|--------------------|--------------------|--------------------|
|--0--2--0-----0-----|-----------0--------|--3--------3--0-----|
|-----------5-----5--|--4-----------4--0--|-----------------5--|
|--------------------|--------------------|--------------------|
   |__|__|  |__|__|     |        |__|__|     |        |__|__|


|-----------------0--|--2--0--------------|------------------||
|--0-----0--3--5-----|--------5--4--0-----|--0--5--5--5-----*||
|-----5--------------|-----------------5--|-----------------*||
|--------------------|--------------------|------------------||
   |__|__|  |__|__|     |__|__|  |__|__|     |__|__|  |

============================================================
==                 TABLATURE EXPLANATION                  ==
============================================================

||------|| Repeat         ----------
||*----*||                -4:------- Time
||*----*||                -4:------- Signature
||------||                ----------

Rhythm:
  Q = dotted quarter

Simple Gifts Mandolin Tablature Archive | Elizabeth T. Knuth's Home Page

Comments to: eknuth@unix.csbsju.edu


Valid HTML 3.2!

Banish Misfortune / Rev. 11 December 1998 / © Copyright 1998, Elizabeth T. Knuth / URL: http://www.users.csbsju.edu/~eknuth/mandotab/banishmi.html