Cherish the Ladies


If you've wandered in here by mistake, perhaps you're looking for the musical group Cherish the Ladies. The group took its name from a traditional Irish double jig. If you'd like to learn to play the tune "Cherish the Ladies" on the mandolin or bouzouki, you've come to the right place.


                     Cherish the Ladies

                                      Traditional Irish tune
                                       Mandolin tablature by 
                                    Elizabeth T. Knuth, 1998

Key: D

Double jig


E--||--------------|--------------------|
A--||*--6:--0-2-4--|--5--------0--------|
D--||*--8:---------|-----4--4-----4--4--|
G--||--------------|--------------------|
            |_|_|     |__|__|  |__|__|
              3


|--------------------|--------------------|
|--------0--0--------|--2-----------------|
|--0--4--------5--4--|-----2--2--5--2--2--|
|--------------------|--------------------|
   |__|__|  |__|__|     |__|__|  |__|__|


|--------------------|--------------------|
|-----2--0-----------|--5--------0--------|
|--5--------5--4--2--|-----4--4-----4--4--|
|--------------------|--------------------|
   |__|__|  |__|__|     |__|__|  |__|__|


|--------------------|-----------0--2--3--|
|--------0--0-----0--|--2--4--5-----------|
|--0--4--------4-----|--------------------|
|--------------------|--------------------|
   |__|__|  |__|__|     |__|__|  |__|__|


|--2--------------||
|-----5--5--5----*||
|----------------*||
|-----------------||
   |__|__|  |  
                    

||----------|-----2--------0-----|-----2--------------|
||*--0-2-4--|--5-----5--4-----4--|--5-----5--0--------|
||*---------|--------------------|--------------5--4--|
||----------|--------------------|--------------------|
     |_|_|     |__|__|  |__|__|     |__|__|  |__|__|
       3


|--------------------|--------------------|
|--2-----------------|-----2--0-----------|
|-----2--2--5--2--2--|--5--------5--4--2--|
|--------------------|--------------------|
   |__|__|  |__|__|     |__|__|  |__|__|


|-----2--------0-----|-----2--------------|
|--5-----5--4-----4--|--5-----5--0--------|
|--------------------|--------------5--4--|
|--------------------|--------------------|
   |__|__|  |__|__|     |__|__|  |__|__|


|-----------0--2--3--|--2--------------||
|--2--4--5-----------|-----5--5--5----*||
|--------------------|----------------*||
|--------------------|-----------------||
   |__|__|  |__|__|     |__|__|  |       


||------|-----2--------0-----|-----2--------------|
||*--0--|--5-----5--4-----4--|--5-----5--0--------|
||*-----|--------------------|--------------5--4--|
||------|--------------------|--------------------|
     |_    |__|__|  |__|__|     |__|__|  |__|__|


      e        e  
|-----r--------r-----|---------------------|
|--2--e--------e-----|-----4--2-0----------|
|-----s--2--5--s--2--|--5---------5--4--2--|
|-----t--------t-----|---------------------|
   |     |  |     |     |  |  | | |  |  |
   |_____|  |_____|     |__|__|=| |__|__|


|--------------------|--------------------|
|--5-----5--4-----4--|--5-----5--0--------|
|-----5--------4-----|-----5-----------5--|
|--------------------|--------------------|
   |__|__|  |__|__|     |__|__|  |     |_


   E   s s s
|------------0--2--3--|--2--------------||
|--0---2-4-5----------|-----5--5--5----*||
|---------------------|----------------*||
|---------------------|-----------------||
   |   | | | |  |  |     |  |  |  |
   |___|=|=| |__|__|     |__|__|  |


|-----||------------2--------|--5--------2--------|
|--2--||*--0--5--5-----5--5--|-----5--5-----5--5--|
|-----||*--------------------|--------------------|
|-----||---------------------|--------------------|
   |_      |__|__|  |__|__|     |__|__|  |__|__|


|------------3--2--3--|--0-----0--3--2--0--|
|--0-2-4--5-----------|-----4--------------|
|---------------------|--------------------|
|---------------------|--------------------|
   | | |  |  |  |  |     |  |  |  |  |  |
   |=|=|__|  |__|__|     |__|__|  |__|__|      


|--5--3--2--7--3--0--|--5--2--------------|
|--------------------|--------5--4--2--0--|
|--------------------|--------------------|
|--------------------|--------------------|
   |__|__|  |__|__|     |__|__|  |__|__|


|--2-3-5----------------|---------------------||
|--------2-----0--------|--------------------*||
|-----------------5--4--|--5--2--4--5--4--2--*||
|-----------------------|---------------------||
   |_|_| |     |__|__|     |__|__|  |__|__|
     3


|--2-----2--3--2-----|--2--0-----------0--|
|-----------------5--|--------5--4--5-----|
|--------------------|--------------------|
|--------------------|--------------------|
   |     |_ |__|__|     |__|__|  |__|__|


|--3-----3--3--2--3--|--0-----0--3--2--0--|
|--------------------|-----4--------------|
|--------------------|--------------------|
|--------------------|--------------------|
   |     |_ |__|__|     |__|__|  |__|__|


|--5--3--2--7--3--0--|--5--2--------------|
|--------------------|--------5--4--2--0--|
|--------------------|--------------------|
|--------------------|--------------------|
   |__|__|  |__|__|     |__|__|  |__|__|                                                


|--2-----------------|--------------------|
|-----5--2--0--------|--------------------|
|--------------5--4--|--5--2--4--5--4--2--|
|--------------------|--------------------|
   |__|__|  |__|__|     |__|__|  |__|__|


||---------------------|--------------------|
||*--------0--5--0-----|--------0--2--------|
||*--0--4-----------4--|--0--4--------5--2--|
||---------------------|--------------------|
     |__|__|  |__|__|     |__|__|  |__|__|


|--------------------|--------------------|
|--------------------|--------0--------2--|
|--5--2--4--5--4--2--|--0--4-----0--5-----|
|--------------------|--------------------|
   |__|__|  |__|__|     |__|__|  |__|__|


|-----------------0--|--2-----------------|
|--------0--5--------|-----5--2--0--------|
|--0--4--------------|--------------5--4--|
|--------------------|--------------------|
   |__|__|  |     |_    |__|__|  |__|__|


|---------------------||
|--------------------*||
|--5--2--4--5--4--2--*||
|---------------------||
   |__|__|  |__|__|     


|--------------------|--------------------|
|--5--------0--------|--------0--0--------|
|-----4--4-----4--4--|--0--4--------5--4--|
|--------------------|--------------------|
   |__|__|  |__|__|     |__|__|  |__|__|  


|--------------------|--------------------|
|--2-----------------|-----2--0-----------|
|-----2--2--5--2--2--|--5--------5--4--2--|
|--------------------|--------------------|
   |__|__|  |__|__|     |__|__|  |__|__|


|--------------------|--------------------|
|--5--------0--------|--------0--0-----0--|
|-----4--4-----4--4--|--0--4--------4-----|
|--------------------|--------------------|
   |__|__|  |__|__|     |__|__|  |__|__|


|-----------0--2--3--|--2--------------||
|--2--4--5-----------|-----5--5--5-----||
|--------------------|-----------------||
|--------------------|-----------------||
   |__|__|  |__|__|     |__|__|  |

============================================================
==                 TABLATURE EXPLANATION                  ==
============================================================

||------|| Repeat         ----------
||*----*||                -4:------- Time
||*----*||                -4:------- Signature
||------||                ----------

Rhythm:
  e = eighth note or rest   E = dotted eighth
  s = sixteenth note

I found this tune in standard notation as number 29 in Francis O'Neill, The Dance Music of Ireland, ed. Francis O'Neill, arr. James O'Neill (Chicago: Lyon & Healy, 1907) 21. The tune is in the public domain in the United States.

Transcription to tablature for mandolin is my own original work, as is formatting for the World Wide Web. The copyright statement below applies to my work and not to the tune itself.


Home of Cherish the Ladies (musical group)

Simple Gifts Mandolin Tablature Archive | Elizabeth T. Knuth's Home Page

Comments to: eknuth@unix.csbsju.edu


Valid HTML 3.2!

Cherish the Ladies / Rev. 11 December 1998 / © Copyright 1998, Elizabeth T. Knuth / URL: http://www.users.csbsju.edu/~eknuth/mandotab/cherisht.html