Devil's Dream


                        Devil's Dream

                                                 Traditional
                                       Mandolin tablature by 
                                    Elizabeth T. Knuth, 1998

Key: A

Reel


E--||-------0-----|--5--4--5--0--5--4--5--0--|
A--||*--4:--------|--------------------------|
D--||*--4:--------|--------------------------|
G--||-------------|--------------------------|
            |        |__|__|__|  |__|__|__|


|--5--4--5--0--2--0--------|-----2-----2-----2-----2--|
|--------------------5--4--|--5-----2-----5-----2-----|
|--------------------------|--------------------------|
|--------------------------|--------------------------|
   |__|__|__|  |__|__|__|     |__|__|__|  |__|__|__|


|-----2-----2--5--4--2--0--|--5--4--5--0--5--4--5--0--|
|--5-----2-----------------|--------------------------|
|--------------------------|--------------------------|
|--------------------------|--------------------------|
   |__|__|__|  |__|__|__|     |__|__|__|  |__|__|__|


|--5--4--5--0--2--0--------|-----2--0-----------------|
|--------------------5--4--|--5--------5--4--2--0-----|
|--------------------------|-----------------------5--|
|--------------------------|--------------------------|
   |__|__|__|  |__|__|__|     |__|__|__|  |__|__|__|


|---------------------||
|--0-----0--0--0-----*||
|--------------------*||
|---------------------||
   |     |__|  |


||---0-----|-----0-----0-----0-----0--|
||*--------|--4-----0-----4-----0-----|
||*--------|--------------------------|
||---------|--------------------------|
     |        |__|__|__|  |__|__|__|


|-----0-----0--2--0--------|-----2-----2-----2-----2--|
|--4-----0-----------5--4--|--5-----2-----5-----2-----|
|--------------------------|--------------------------|
|--------------------------|--------------------------|
   |__|__|__|  |__|__|__|     |__|__|__|  |__|__|__|


|-----2-----2--5--4--2--0--|-----0-----0-----0-----0--|
|--5-----2-----------------|--4-----0-----4-----0-----|
|--------------------------|--------------------------|
|--------------------------|--------------------------|
   |__|__|__|  |__|__|__|     |__|__|__|  |__|__|__|


|-----0-----0--2--0--------|-----2--0-----------------|
|--4-----0-----------5--4--|--5--------5--4--2--0-----|
|--------------------------|-----------------------5--|
|--------------------------|--------------------------|
   |__|__|__|  |__|__|__|     |__|__|__|  |__|__|__|


|---------------------||
|--0-----0--0--0-----*||
|--------------------*||
|---------------------||
   |     |__|  |

============================================================
==                 TABLATURE EXPLANATION                  ==
============================================================

||------|| Repeat         ----------
||*----*||                -4:------- Time
||*----*||                -4:------- Signature
||------||                ----------

"Devil's Dream" is a fairly popular tune for fiddlers in bluegrass and old timey circles. Some Irish bands play it as well.

This tune appeared in 1900 at the latest, and is in the public domain worldwide.

If you like, you can hear a MIDI file of "Devil's Dream".


Simple Gifts Mandolin Tablature Archive | Elizabeth T. Knuth's Home Page

Comments to: eknuth@unix.csbsju.edu


Valid HTML 3.2!

Devil's Dream / Revised 17 April 2004 / © Copyright 2004, Elizabeth T. Knuth / URL: http://www.users.csbsju.edu/~eknuth/mandotab/devilsdr.html