Garry Owen


                         Garry Owen

                                                 Traditional
                                       Mandolin tablature by
                                    Elizabeth T. Knuth, 1998

Key: G

Jig

E--||------3-2--||---0------------------------|
A--||--6:-------||*------5---3---2---0--------|
D--||--8:-------||*----------------------5----|
G--||-----------||----------------------------|
           | |       |   |   |   |   |   |
           |=|       |___|___|   |___|___|


|------------------3---2----|--0-----------------------|
|--2---3---2---2------------|------5---3---2---0-------|
|---------------------------|---------------------5----|
|---------------------------|--------------------------|
   |   |   |   |   |   |       |   |   |   |   |   |
   |___|___|   |___|___|       |___|___|   |___|___|   


|------------------3---2----|--0-----------------------|
|--0---2---0---0------------|------5---3---2---0-------|
|---------------------------|---------------------5----|
|---------------------------|--------------------------|
   |   |   |   |   |   |       |   |   |   |   |   |
   |___|___|   |___|___|       |___|___|   |___|___|


|---------------------------|--0---3---0----------------|
|--2---3---2---2-------5----|--------------5---2--------|
|---------------------------|----------------------5----|
|---------------------------|---------------------------|
   |   |   |   |       |       |   |   |   |   |   |
   |___|___|   |       |_      |___|___|   |___|___|                                                            

 ____________________________  ___________________________
|1.                          ||2.                         |

|----------------------3-2---||---------------------------|
|--0---2---0---0------------*||--0---2---0---0-------2-3--|
|---------------------------*||---------------------------|
|----------------------------||---------------------------|
   |   |   |   |       | |       |   |   |   |       | |
   |___|___|   |       |=|       |___|___|   |       |=|


||----------------------------|------------------3---2----|
||*--5-------2---5-------2----|--5-------2---5------------|
||*---------------------------|---------------------------|
||----------------------------|---------------------------|
     |       |   |       |       |       |   |   |   |
     |       |_  |       |_      |       |_  |___|___|


|--0-----------0------------|--0-----------0-------2----|
|----------3-----------3----|----------3----------------|
|---------------------------|---------------------------|
|---------------------------|---------------------------|
   |       |   |       |       |       |   |       |
   |       |_  |       |_      |       |_  |       |_


|--3-------5---7-------5----|--3---2---0----------------|
|---------------------------|--------------5---3---2----|
|---------------------------|---------------------------|
|---------------------------|---------------------------|
   |       |   |       |       |   |   |   |   |   |
   |       |_  |       |_      |___|___|   |___|___|

                             ____________________________
                            |1.                          |
                            
|--0---3---0----------------|----------------------------||
|--------------5---2--------|--0---2---0-----------2-3--*||
|----------------------5----|--------------5------------*||
|---------------------------|----------------------------||
   |   |   |   |   |   |       |   |   |   |       | |                                                            
   |___|___|   |___|___|       |___|___|   |       |=|

 ________________________
|2.                      |

|-----------------------||
|--0---2---0------------||
|--------------5--------||
|-----------------------||
   |   |   |   |
   |___|___|   |

============================================================
==                 TABLATURE EXPLANATION                  ==
============================================================

||------|| Repeat         ----------
||*----*||                -4:------- Time
||*----*||                -4:------- Signature
||------||                ----------

 ________
| 1.     |

|--------|
|--------| First Ending
|--------| (2. for Second Ending)
|--------|

By request.

Easy to play, and a good warm-up.

If you like, you can hear a MIDI file of "Garry Owen".


Simple Gifts Mandolin Tablature Archive | Elizabeth T. Knuth's Home Page

Comments to: eknuth@unix.csbsju.edu


Valid HTML 3.2!

Garry Owen / Rev. 9 May 1999 / © Copyright 1999, Elizabeth T. Knuth / URL: http://www.users.csbsju.edu/~eknuth/mandotab/garryo.html