Jesu, Joy of Man's Desiring


                Jesu, Joy of Man's Desiring

                                       Johann Sebastian Bach
                                       Mandolin tablature by
                                    Elizabeth T. Knuth, 1998

Key: G


E--||------------------------|-----0--------3--2--|
A--||--6:--2-----0--2--5--3--|--3-----5--5--------|
D--||--8:-----5--------------|--------------------|
G--||------------------------|--------------------|
           |__|__|  |__|__|     |__|__|  |__|__|


|--3-----------------|--------0-----------|--------------------|
|-----5--2-----0--2--|--3--5-----5--3--2--|--0--2-----------0--|
|-----------5--------|--------------------|--------5--4--5-----|
|--------------------|--------------------|--------------------|
   |__|__|  |__|__|     |__|__|  |__|__|     |__|__|  |__|__|


|--------------------|--------------------|-----0--------3--2--|
|--------0--3--2--0--|--2-----0--2--5--3--|--3-----5--5--------|
|--0--4--------------|-----5--------------|--------------------|
|--------------------|--------------------|--------------------|
   |__|__|  |__|__|     |__|__|  |__|__|     |__|__|  |__|__|


|--3-----------------|--------------------|--------------------|
|-----5--2-----0--2--|-----5--3--2--0-----|--------0-----2--5--|
|-----------5--------|--2--------------5--|--0--5-----5--------|
|--------------------|--------------------|--------------------|
   |__|__|  |__|__|     |__|__|  |__|__|     |__|__|  |__|__|


            Q
|--3-----------------|--------------------|-----0--------3--2--|
|-----5--2-----------|--2-----0--2--5--3--|--3-----5--5--------|
|-----------5--------|-----5--------------|--2--------5--------|
|--------------------|--------------------|--------------------|
   |__|__|  |           |__|__|  |__|__|     |__|__|  |__|__|


|--3-----------------|--------0-----------|--------------------|
|--2--5--2-----0--2--|--3--5-----5--3--2--|--0--2-----------0--|
|-----------5--------|--2-----------------|--0-----5--4--5-----|
|-----------4--------|--------------------|--------------------|
   |__|__|  |__|__|     |__|__|  |__|__|     |__|__|  |__|__|


|--------------------|--------------------|-----0--------3--2--|
|--------0--3--2--0--|--2-----0--2--5--3--|--3-----5--5--------|
|--0--4--------------|-----5--------------|--2--------5--------|
|--2-----------------|--------------------|--------------------|
   |__|__|  |__|__|     |__|__|  |__|__|     |__|__|  |__|__|


|--3-----------------|--------------------|--------------------|
|--2--5--2-----0--2--|-----5--3--2--0-----|--------0-----2--5--|
|-----------5--------|--2--------------5--|--0--5-----5--------|
|-----------4--------|--------------------|--2--------4--------|
   |__|__|  |__|__|     |__|__|  |__|__|     |__|__|  |__|__|


            Q               
|--3-----------------||
|--2--5--2-----------||
|-----------5--------||
|-----------4--------||
   |__|__|  |

============================================================
==                 TABLATURE EXPLANATION                  ==
============================================================

----------                
-4:------- Time           
-4:------- Signature      
----------                

Rhythm:
  Q = dotted quarter

A good warmup exercise, not too hard to play, and sounds nice.

The first and fourth beats of each measure should be emphasized.

If you like, you can hear a MIDI file of "Jesu, Joy of Man's Desiring".


Simple Gifts Mandolin Tablature Archive | Elizabeth T. Knuth's Home Page

Comments to: eknuth@unix.csbsju.edu


Valid HTML 3.2!

Jesu, Joy of Man's Desiring / Rev. 11 December 1998 / © Copyright 1998, Elizabeth T. Knuth / URL: http://www.users.csbsju.edu/~eknuth/mandotab/jesujoy.html