Katie's Fancy


                        Katie's Fancy

                                                 Traditional
                                       Mandolin tablature by 
                                    Elizabeth T. Knuth, 1998

Key: G

Double jig


E--||------------|--------------------|-----3--2--0--2--3--|
A--||*--6:-------|-----------------0--|--2-----------------|
D--||*--8:--5-2--|--0--2--4--5--------|--------------------|
G--||------------|--------------------|--------------------|
            | |     |  |  |  |     |     |  |  |  |  |  |
            |=|     |__|__|  |     |_    |__|__|  |__|__|


|--------------------|--------------------|
|--5--2-----------0--|--2-----2--0--------|
|--------5--4--5-----|-----5--------4--0--|
|--------------------|--------------------|
   |__|__|  |__|__|     |__|__|  |__|__|


|--------------------|-----3--2--0--2--3--|
|-----------------0--|--2-----------------|
|--0--2--4--5--------|--------------------|
|--------------------|--------------------|
   |__|__|  |     |_    |__|__|  |__|__|


|--------------------|------------------||
|--5--2-----------0--|--2--------------*||
|--------5--4--5-----|-----5--5--5-----*||
|--------------------|------------------||
   |__|__|  |__|__|     |__|__|  |


||------|--3--2--0--5--3--2--|--3--2--0-----------|
||*--5--|--------------------|-----------5--2-----|
||*-----|--------------------|-----------------5--|
||------|--------------------|--------------------|
     |_    |__|__|  |__|__|     |__|__|  |__|__|


|--3--2--0-----------|--------------------|
|-----------5--3--2--|--0-----0--2--------|
|--------------------|-----5--------5--2--|
|--------------------|--------------------|
   |__|__|  |__|__|     |__|__|  |__|__|


|--------------------|-----3--2--0--2--3--|
|-----------------0--|--2-----------------|
|--0--2--4--5--------|--------------------|
|--------------------|--------------------|
   |__|__|  |     |_    |__|__|  |__|__|


|--------------------|------------------||
|--5--2-----------0--|--2--------------*||
|--------5--4--5-----|-----5--5--5-----*||
|--------------------|------------------||
   |__|__|  |__|__|     |__|__|  |


||------|--------------------|--------------------|
||*--5--|--5--3--2--3--5--7--|--0--5--3--2--0-----|
||*-----|--------------------|-----------------5--|
||------|--------------------|--------------------|
     |_    |__|__|  |__|__|     |__|__|  |__|__|


|--7--5--3--2--5--3--|--2--3--0-----------|
|--------------------|-----------5-----5--|
|--------------------|--------------------|
|--------------------|--------------------|
   |__|__|  |__|__|     |__|__|  |     |_


|--0-----0--3--2--0--|-----0--------------|
|-----3--------------|--5-----3--2--3--5--|
|--------------------|--------------------|
|--------------------|--------------------|
   |__|__|  |__|__|     |__|__|  |__|__|


|--------------------|------------------||
|--3--0-----------0--|--2--------------*||
|--------4--0--4-----|-----5--5--5-----*||
|--------------------|------------------||
   |__|__|  |__|__|     |__|__|  |

============================================================
==                 TABLATURE EXPLANATION                  ==
============================================================

||------|| Repeat         ----------
||*----*||                -4:------- Time
||*----*||                -4:------- Signature
||------||                ----------

I found this tune in standard notation as number 46 in Francis O'Neill, The Dance Music of Ireland, ed. Francis O'Neill, arr. James O'Neill (Chicago: Lyon & Healy, 1907) 24. The tune is in the public domain in the United States.

Transcription to tablature for mandolin is my own original work, as is formatting for the World Wide Web. The copyright statement below applies to my work and not to the tune itself.

If you like, you can hear a MIDI file of "Katie's Fancy".


Simple Gifts Mandolin Tablature Archive | Elizabeth T. Knuth's Home Page

Comments to: eknuth@unix.csbsju.edu


Valid HTML 3.2!

Katie's Fancy / Revised 18 April 2004 / © Copyright 2004, Elizabeth T. Knuth / URL: http://www.users.csbsju.edu/~eknuth/mandotab/katiesfa.html