Manoah


                              Manoah

                                               In H.W. Greatorex,
                        Collection of Psalm and Hymn Tunes (1851)
                                            Mandolin tablature by
                                         Elizabeth T. Knuth, 2004

Key: G


E--||----------|--------------|--------------|--------------|
A--||--3:----0-|--2-------0---|--------------|--------------|
D--||--4:--5---|----------4---|--5-------4---|--4-------2---|
G--||------4---|--------------|--4-----------|--5-----------|
           |_|    |   |   |      |   |   |      |   |   |

          When    all    thy     mer  - cies,   O      my


|--------------|--------------|--------------|
|----------0-2-|--3-------2---|--0-----------|
|--2-------2---|--2-------2---|--2-------5---|
|--------------|--2-----------|--2-----------|
   |   |   |_|    |   |   |      |   |   |

  God,     My    ris  -  ing    soul    sur-

     ____________
|---/----------|-\------------|--------------|--------------|
|--/-----------|--\-----------|--2-------0---|--3-------2---|
|--5-----------|--4-------0---|--------------|--2-------0---|
|--------------|--------------|--------------|--0-------0---|
   |   |   |      |   |   |      |   |   |      |   |   |

  veys,                 Trans - port  -  ed    with    the

                   ___
|--0-----------|--/---\-------|--------------|--------------|
|----------2---|--5---3---0---|--------------|--2-------0---|
|----------2---|----------2---|--5-------0---|--0-------0---|
|--------------|--------------|----------4---|----------5---|
   |   |   |      |   |   |      |   |   |      |   |   |

  view,   I'm     lost   In     won  -  der,   love    and

     ____________
|---/----------|-\--------||
|--/-----------|--\-------||
|--5-----------|--5-------||
|--------------|----------||
   |   |   |      |   |

   praise.

=================================================================
==                    TABLATURE EXPLANATION                    ==
=================================================================
                             _____                     _
---------                ---/--|--\---             ---/-\---
-4:------ Time           --/---|---\-- Tied        ------2-- Slur
-4:------ Signature      --5---|---5-- Note        --5------
---------                --4---|---4--             ---------

Meter: C.M.

The tune "Manoah" appeared in H.W. Greatorex's 1851 book Collection of Psalm and Hymn Tunes, Chants, Anthems, and Sentences. The composer is unknown. The text "When All Thy Mercies" was written by Joseph Addison (d. 1719). Both are in the public domain worldwide.

Other texts sometimes set to "Manoah" include "Begin, My Tongue, Some Heavenly Theme," "O Christ Our Hope, Our Heart's Desire," and "Walk in the Light."

If you like, you can hear a MIDI file of "Manoah".


Simple Gifts Mandolin Tablature Archive | Elizabeth T. Knuth's Home Page

Comments to: eknuth@unix.csbsju.edu


Valid HTML 3.2!

Manoah / Revised 15 April 2004 / © Copyright 2004, Elizabeth T. Knuth / URL: http://www.users.csbsju.edu/~eknuth/mandotab/manoah.html