Shenandoah

in C


                        Shenandoah, in C

Traditional, American                       Mandolin tablature by
                                         Elizabeth T. Knuth, 2001

Key: C

E--||-----------|
A--||--4:-------|
D--||--4:--5----|
G--||-----------|
           |

          Oh,

   Q             ____________
|---------------/----------|-\------------0-----1-----|
|--3--------3--3-----------|--3-----5-----------------|
|--2--------2--------------|--------------------------|
|--0--------0--------------|--------------------------|
   |        |_ |     |        |     |     |     |

  Shen  -  an-doah,                 I   long   to
                ______________
               /              \
|--5-----------3-----------|--3-----------8-----7-----|
|--------------3-----------|--3-----------------------|
|--------------2-----------|--2-----------------------|
|--------------0-----------|--0-----------------------|
   |     |     |     |        |     |     |     |

  see         you.                        A      - 
    __________________________
   /                          \
|--5-----------------------|--5-----3-----5-----3-----|
|--3-----------------------|--3-----------------------|
|--3-----------------------|--3-----------------------|
|--------------------------|--------------------------|
   |     |     |     |        |     |     |     |

  way,                             you  roll - ing
          ____________________
         /                    \
|--0-----3-----------------|--3-----------0-----3-----|
|--3-----------------------|--------------------------|
|--2-----------------------|--------------------------|
|--0-----------------------|--------------------------|
   |     |     |     |        |     |     |     |

  riv - er!                               Oh,
                ______________
               /              \
|--5-----5-----5-----------|--5-----0-----3-----0-----|
|--3-----------------------|--------------------------|
|--2-----------------------|--------------------------|
|--------------------------|--------------------------|
   |     |     |     |        |     |     |     |     

Shen - an  - doah,                  I   long   to

                 ____________
|---------------/----------|-\------------------------|
|--5-----------3-----------|--3-----------------------|
|--3-----------3-----------|--3-----------5-----------|
|--2-----------------------|--------------------------|
   |     |     |     |        |     |     |     |

  see         you.                        A      -
  
     ________________________
|---/----------------------|-\------------------5-----|
|--3-----------------------|--3-----0-----3-----------|
|--2-----------------------|--2-----------------------|
|--0-----------------------|--0-----------------------|
   |     |     |     |        |     |     |     |

  way,                             I'm  bound   a   -

    __________________________
   /                          \
|--3-----------------------|--3-----------------------|
|--2-----------------------|--2-----------3-----5-----|
|--2-----------------------|--2-----------------------|
|--0-----------------------|--0-----------------------|
   |     |     |     |        |     |     |     |
   
  way,                                  'Cross the


|--0-----------------------|
|--3-----------------3-----|
|--2-----------------------|
|--0-----------------------|
   |     |     |     |

  wide              Mis-

                 ____________
|---------------/----------|-\------------------||
|--5-----------3-----------|--3-----------------||
|--------------2-----------|--2-----------------||
|--------------0-----------|--0-----------------||
   |     |     |     |        |     |     |

 sou     -    ri.

=================================================================
==                    TABLATURE EXPLANATION                    ==
=================================================================

                              _____
----------                ---/--|--\---
-4:------- Time           --/---|---\-- Tied
-4:------- Signature      --5---|---5-- Note
----------                --4---|---4--

Rhythm:
  Q = dotted quarter
  

By request.

The top notes are the melody. This version is suitable for advanced beginners. Shenandoah in G is easier to play.

If you like, you can hear a MIDI file of "Shenandoah" in C.


Simple Gifts Mandolin Tablature Archive | Elizabeth T. Knuth's Home Page

Comments to: eknuth@unix.csbsju.edu


Valid HTML 3.2!

Shenandoah (in C) / Rev. 15 Oct 2001 / © Copyright 2001, Elizabeth T. Knuth / URL: http://www.users.csbsju.edu/~eknuth/mandotab/shenandc.html